ISO-10303-21;
HEADER;
FILE_DESCRIPTION(('STEP AP214'),'1');
FILE_NAME('C:/TPO v2/SharedFS/Outgoing/hpc80.stp','2015-08-12T09:27:36',('TraceParts'),('TraceParts S.A.'),'Spatial InterOp 3D',' ',' ');
FILE_SCHEMA(('automotive_design'));
ENDSEC;
DATA;
#1=PRODUCT_DEFINITION_CONTEXT('',#9,'design');
#2=APPLICATION_PROTOCOL_DEFINITION('INTERNATIONAL STANDARD','automotive_design',1994,#9);
#3=PRODUCT_CATEGORY_RELATIONSHIP('NONE','NONE',#10,#11);
#4=SHAPE_DEFINITION_REPRESENTATION(#12,#13);
#5= (GEOMETRIC_REPRESENTATION_CONTEXT(3)GLOBAL_UNCERTAINTY_ASSIGNED_CONTEXT((#16))GLOBAL_UNIT_ASSIGNED_CONTEXT((#18,#19,#20))REPRESENTATION_CONTEXT('NONE','WORKSPACE'));
#9=APPLICATION_CONTEXT(' ');
#10=PRODUCT_CATEGORY('part','NONE');
#11=PRODUCT_RELATED_PRODUCT_CATEGORY('detail',' ',(#22));
#12=PRODUCT_DEFINITION_SHAPE('NONE','NONE',#23);
#13=ADVANCED_BREP_SHAPE_REPRESENTATION('1',(#24,#25),#5);
#16=UNCERTAINTY_MEASURE_WITH_UNIT(LENGTH_MEASURE(1.0E-006),#18,'','');
#18= (CONVERSION_BASED_UNIT('MILLIMETRE',#28)LENGTH_UNIT()NAMED_UNIT(#31));
#19= (NAMED_UNIT(#33)PLANE_ANGLE_UNIT()SI_UNIT($,.RADIAN.));
#20= (NAMED_UNIT(#33)SOLID_ANGLE_UNIT()SI_UNIT($,.STERADIAN.));
#22=PRODUCT('1','1','PART-1-DESC',(#39));
#23=PRODUCT_DEFINITION('NONE','NONE',#40,#1);
#24=MANIFOLD_SOLID_BREP('1',#41);
#25=AXIS2_PLACEMENT_3D('',#42,#43,#44);
#28=LENGTH_MEASURE_WITH_UNIT(LENGTH_MEASURE(1.0),#45);
#31=DIMENSIONAL_EXPONENTS(1.0,0.0,0.0,0.0,0.0,0.0,0.0);
#33=DIMENSIONAL_EXPONENTS(0.0,0.0,0.0,0.0,0.0,0.0,0.0);
#39=PRODUCT_CONTEXT('',#9,'mechanical');
#40=PRODUCT_DEFINITION_FORMATION_WITH_SPECIFIED_SOURCE(' ','NONE',#22,.NOT_KNOWN.);
#41=CLOSED_SHELL('',(#46,#47,#48,#49,#50,#51,#52,#53,#54,#55,#56,#57,#58,#59,#60,#61,#62,#63,#64,#65,#66,#67,#68));
#42=CARTESIAN_POINT('',(0.0,0.0,0.0));
#43=DIRECTION('',(0.0,0.0,1.0));
#44=DIRECTION('',(1.0,0.0,0.0));
#45= (NAMED_UNIT(#31)LENGTH_UNIT()SI_UNIT(.MILLI.,.METRE.));
#46=ADVANCED_FACE('',(#70),#71,.T.);
#47=ADVANCED_FACE('',(#72),#73,.T.);
#48=ADVANCED_FACE('',(#74),#75,.F.);
#49=ADVANCED_FACE('',(#76),#77,.F.);
#50=ADVANCED_FACE('',(#78),#79,.T.);
#51=ADVANCED_FACE('',(#80),#81,.T.);
#52=ADVANCED_FACE('',(#82),#83,.F.);
#53=ADVANCED_FACE('',(#84),#85,.F.);
#54=ADVANCED_FACE('',(#86),#87,.F.);
#55=ADVANCED_FACE('',(#88),#89,.F.);
#56=ADVANCED_FACE('',(#90),#91,.F.);
#57=ADVANCED_FACE('',(#92),#93,.F.);
#58=ADVANCED_FACE('',(#94,#95),#96,.F.);
#59=ADVANCED_FACE('',(#97),#98,.T.);
#60=ADVANCED_FACE('',(#99,#100),#101,.T.);
#61=ADVANCED_FACE('',(#102),#103,.T.);
#62=ADVANCED_FACE('',(#104),#105,.T.);
#63=ADVANCED_FACE('',(#106),#107,.F.);
#64=ADVANCED_FACE('',(#108),#109,.F.);
#65=ADVANCED_FACE('',(#110,#111),#112,.T.);
#66=ADVANCED_FACE('',(#113),#114,.T.);
#67=ADVANCED_FACE('',(#115),#116,.T.);
#68=ADVANCED_FACE('',(#117,#118),#119,.T.);
#70=FACE_OUTER_BOUND('',#120,.T.);
#71=CYLINDRICAL_SURFACE('',#121,15.0);
#72=FACE_OUTER_BOUND('',#122,.T.);
#73=CONICAL_SURFACE('',#123,14.0528125,0.78539816339745);
#74=FACE_OUTER_BOUND('',#124,.T.);
#75=CYLINDRICAL_SURFACE('',#125,5.9995);
#76=FACE_OUTER_BOUND('',#126,.T.);
#77=CONICAL_SURFACE('',#127,2.99975,1.0471975511966);
#78=FACE_OUTER_BOUND('',#128,.T.);
#79=CYLINDRICAL_SURFACE('',#129,40.0);
#80=FACE_OUTER_BOUND('',#130,.T.);
#81=CYLINDRICAL_SURFACE('',#131,22.25);
#82=FACE_OUTER_BOUND('',#132,.T.);
#83=PLANE('',#133);
#84=FACE_OUTER_BOUND('',#134,.T.);
#85=PLANE('',#135);
#86=FACE_OUTER_BOUND('',#136,.T.);
#87=PLANE('',#137);
#88=FACE_OUTER_BOUND('',#138,.T.);
#89=PLANE('',#139);
#90=FACE_OUTER_BOUND('',#140,.T.);
#91=PLANE('',#141);
#92=FACE_OUTER_BOUND('',#142,.T.);
#93=PLANE('',#143);
#94=FACE_BOUND('',#144,.T.);
#95=FACE_OUTER_BOUND('',#145,.T.);
#96=PLANE('',#146);
#97=FACE_OUTER_BOUND('',#147,.T.);
#98=CYLINDRICAL_SURFACE('',#148,22.25);
#99=FACE_OUTER_BOUND('',#149,.T.);
#100=FACE_BOUND('',#150,.T.);
#101=PLANE('',#151);
#102=FACE_OUTER_BOUND('',#152,.T.);
#103=CYLINDRICAL_SURFACE('',#153,40.0);
#104=FACE_OUTER_BOUND('',#154,.T.);
#105=PLANE('',#155);
#106=FACE_OUTER_BOUND('',#156,.T.);
#107=CONICAL_SURFACE('',#157,2.99975,1.0471975511966);
#108=FACE_OUTER_BOUND('',#158,.T.);
#109=CYLINDRICAL_SURFACE('',#159,5.9995);
#110=FACE_BOUND('',#160,.T.);
#111=FACE_OUTER_BOUND('',#161,.T.);
#112=PLANE('',#162);
#113=FACE_OUTER_BOUND('',#163,.T.);
#114=CONICAL_SURFACE('',#164,14.0528125,0.78539816339745);
#115=FACE_OUTER_BOUND('',#165,.T.);
#116=CYLINDRICAL_SURFACE('',#166,15.0);
#117=FACE_OUTER_BOUND('',#167,.T.);
#118=FACE_BOUND('',#168,.T.);
#119=PLANE('',#169);
#120=EDGE_LOOP('',(#170,#171,#172,#173));
#121=AXIS2_PLACEMENT_3D('',#174,#175,#176);
#122=EDGE_LOOP('',(#177,#178,#179,#180));
#123=AXIS2_PLACEMENT_3D('',#181,#182,#183);
#124=EDGE_LOOP('',(#184,#185,#186,#187));
#125=AXIS2_PLACEMENT_3D('',#188,#189,#190);
#126=EDGE_LOOP('',(#191,#192,#193));
#127=AXIS2_PLACEMENT_3D('',#194,#195,#196);
#128=EDGE_LOOP('',(#197,#198,#199,#200));
#129=AXIS2_PLACEMENT_3D('',#201,#202,#203);
#130=EDGE_LOOP('',(#204,#205,#206,#207));
#131=AXIS2_PLACEMENT_3D('',#208,#209,#210);
#132=EDGE_LOOP('',(#211,#212,#213,#214));
#133=AXIS2_PLACEMENT_3D('',#215,#216,#217);
#134=EDGE_LOOP('',(#218,#219,#220,#221));
#135=AXIS2_PLACEMENT_3D('',#222,#223,#224);
#136=EDGE_LOOP('',(#225,#226,#227,#228));
#137=AXIS2_PLACEMENT_3D('',#229,#230,#231);
#138=EDGE_LOOP('',(#232,#233,#234,#235));
#139=AXIS2_PLACEMENT_3D('',#236,#237,#238);
#140=EDGE_LOOP('',(#239,#240,#241,#242));
#141=AXIS2_PLACEMENT_3D('',#243,#244,#245);
#142=EDGE_LOOP('',(#246,#247,#248,#249));
#143=AXIS2_PLACEMENT_3D('',#250,#251,#252);
#144=EDGE_LOOP('',(#253,#254));
#145=EDGE_LOOP('',(#255,#256,#257,#258,#259,#260));
#146=AXIS2_PLACEMENT_3D('',#261,#262,#263);
#147=EDGE_LOOP('',(#264,#265,#266,#267));
#148=AXIS2_PLACEMENT_3D('',#268,#269,#270);
#149=EDGE_LOOP('',(#271,#272));
#150=EDGE_LOOP('',(#273,#274));
#151=AXIS2_PLACEMENT_3D('',#275,#276,#277);
#152=EDGE_LOOP('',(#278,#279,#280,#281));
#153=AXIS2_PLACEMENT_3D('',#282,#283,#284);
#154=EDGE_LOOP('',(#285,#286));
#155=AXIS2_PLACEMENT_3D('',#287,#288,#289);
#156=EDGE_LOOP('',(#290,#291,#292));
#157=AXIS2_PLACEMENT_3D('',#293,#294,#295);
#158=EDGE_LOOP('',(#296,#297,#298,#299));
#159=AXIS2_PLACEMENT_3D('',#300,#301,#302);
#160=EDGE_LOOP('',(#303,#304,#305,#306,#307,#308));
#161=EDGE_LOOP('',(#309,#310));
#162=AXIS2_PLACEMENT_3D('',#311,#312,#313);
#163=EDGE_LOOP('',(#314,#315,#316,#317));
#164=AXIS2_PLACEMENT_3D('',#318,#319,#320);
#165=EDGE_LOOP('',(#321,#322,#323,#324));
#166=AXIS2_PLACEMENT_3D('',#325,#326,#327);
#167=EDGE_LOOP('',(#328,#329));
#168=EDGE_LOOP('',(#330,#331));
#169=AXIS2_PLACEMENT_3D('',#332,#333,#334);
#170=ORIENTED_EDGE('',*,*,#335,.F.);
#171=ORIENTED_EDGE('',*,*,#336,.T.);
#172=ORIENTED_EDGE('',*,*,#337,.F.);
#173=ORIENTED_EDGE('',*,*,#338,.F.);
#174=CARTESIAN_POINT('',(-85.8028125,0.0,0.0));
#175=DIRECTION('',(1.0,0.0,0.0));
#176=DIRECTION('',(0.0,1.0,0.0));
#177=ORIENTED_EDGE('',*,*,#339,.F.);
#178=ORIENTED_EDGE('',*,*,#340,.T.);
#179=ORIENTED_EDGE('',*,*,#341,.F.);
#180=ORIENTED_EDGE('',*,*,#336,.F.);
#181=CARTESIAN_POINT('',(-120.5528125,0.0,0.0));
#182=DIRECTION('',(1.0,-0.0,-0.0));
#183=DIRECTION('',(0.0,1.0,0.0));
#184=ORIENTED_EDGE('',*,*,#342,.F.);
#185=ORIENTED_EDGE('',*,*,#343,.T.);
#186=ORIENTED_EDGE('',*,*,#344,.F.);
#187=ORIENTED_EDGE('',*,*,#345,.T.);
#188=CARTESIAN_POINT('',(-113.231906470002,0.0,0.0));
#189=DIRECTION('',(1.0,0.0,0.0));
#190=DIRECTION('',(0.0,1.0,0.0));
#191=ORIENTED_EDGE('',*,*,#346,.F.);
#192=ORIENTED_EDGE('',*,*,#347,.F.);
#193=ORIENTED_EDGE('',*,*,#345,.F.);
#194=CARTESIAN_POINT('',(-103.231906470002,0.0,0.0));
#195=DIRECTION('',(-1.0,-0.0,-0.0));
#196=DIRECTION('',(0.0,1.0,0.0));
#197=ORIENTED_EDGE('',*,*,#348,.F.);
#198=ORIENTED_EDGE('',*,*,#349,.T.);
#199=ORIENTED_EDGE('',*,*,#350,.F.);
#200=ORIENTED_EDGE('',*,*,#351,.F.);
#201=CARTESIAN_POINT('',(-25.2,0.0,0.0));
#202=DIRECTION('',(1.0,0.0,0.0));
#203=DIRECTION('',(0.0,1.0,0.0));
#204=ORIENTED_EDGE('',*,*,#352,.F.);
#205=ORIENTED_EDGE('',*,*,#353,.T.);
#206=ORIENTED_EDGE('',*,*,#354,.F.);
#207=ORIENTED_EDGE('',*,*,#355,.F.);
#208=CARTESIAN_POINT('',(-51.2,0.0,0.0));
#209=DIRECTION('',(1.0,0.0,0.0));
#210=DIRECTION('',(0.0,1.0,0.0));
#211=ORIENTED_EDGE('',*,*,#356,.F.);
#212=ORIENTED_EDGE('',*,*,#357,.T.);
#213=ORIENTED_EDGE('',*,*,#358,.F.);
#214=ORIENTED_EDGE('',*,*,#359,.F.);
#215=CARTESIAN_POINT('',(-122.5,5.19615242270663,-3.0));
#216=DIRECTION('',(0.0,0.866025403784438,-0.5));
#217=DIRECTION('',(0.0,0.5,0.866025403784439));
#218=ORIENTED_EDGE('',*,*,#360,.F.);
#219=ORIENTED_EDGE('',*,*,#359,.T.);
#220=ORIENTED_EDGE('',*,*,#361,.F.);
#221=ORIENTED_EDGE('',*,*,#362,.F.);
#222=CARTESIAN_POINT('',(-122.5,5.19615242270663,3.0));
#223=DIRECTION('',(-0.0,0.866025403784439,0.5));
#224=DIRECTION('',(0.0,-0.5,0.866025403784439));
#225=ORIENTED_EDGE('',*,*,#363,.F.);
#226=ORIENTED_EDGE('',*,*,#362,.T.);
#227=ORIENTED_EDGE('',*,*,#364,.F.);
#228=ORIENTED_EDGE('',*,*,#365,.F.);
#229=CARTESIAN_POINT('',(-122.5,1.77635683940025E-015,6.0));
#230=DIRECTION('',(-0.0,2.56395024851142E-016,1.0));
#231=DIRECTION('',(0.0,-1.0,2.56395024851142E-016));
#232=ORIENTED_EDGE('',*,*,#366,.F.);
#233=ORIENTED_EDGE('',*,*,#365,.T.);
#234=ORIENTED_EDGE('',*,*,#367,.F.);
#235=ORIENTED_EDGE('',*,*,#368,.F.);
#236=CARTESIAN_POINT('',(-122.5,-5.19615242270663,3.0));
#237=DIRECTION('',(0.0,-0.866025403784439,0.5));
#238=DIRECTION('',(0.0,-0.5,-0.866025403784439));
#239=ORIENTED_EDGE('',*,*,#369,.F.);
#240=ORIENTED_EDGE('',*,*,#370,.T.);
#241=ORIENTED_EDGE('',*,*,#371,.F.);
#242=ORIENTED_EDGE('',*,*,#357,.F.);
#243=CARTESIAN_POINT('',(-122.5,-1.33226762955019E-015,-6.0));
#244=DIRECTION('',(0.0,0.0,-1.0));
#245=DIRECTION('',(0.0,1.0,0.0));
#246=ORIENTED_EDGE('',*,*,#372,.F.);
#247=ORIENTED_EDGE('',*,*,#368,.T.);
#248=ORIENTED_EDGE('',*,*,#373,.F.);
#249=ORIENTED_EDGE('',*,*,#370,.F.);
#250=CARTESIAN_POINT('',(-122.5,-5.19615242270663,-3.0));
#251=DIRECTION('',(0.0,-0.866025403784439,-0.5));
#252=DIRECTION('',(0.0,0.5,-0.866025403784439));
#253=ORIENTED_EDGE('',*,*,#374,.F.);
#254=ORIENTED_EDGE('',*,*,#343,.F.);
#255=ORIENTED_EDGE('',*,*,#367,.T.);
#256=ORIENTED_EDGE('',*,*,#364,.T.);
#257=ORIENTED_EDGE('',*,*,#361,.T.);
#258=ORIENTED_EDGE('',*,*,#358,.T.);
#259=ORIENTED_EDGE('',*,*,#371,.T.);
#260=ORIENTED_EDGE('',*,*,#373,.T.);
#261=CARTESIAN_POINT('',(-112.5,-1.44665424420854E-016,2.22044604925031E-016));
#262=DIRECTION('',(1.0,0.0,0.0));
#263=DIRECTION('',(0.0,0.0,-1.0));
#264=ORIENTED_EDGE('',*,*,#352,.T.);
#265=ORIENTED_EDGE('',*,*,#375,.F.);
#266=ORIENTED_EDGE('',*,*,#354,.T.);
#267=ORIENTED_EDGE('',*,*,#376,.T.);
#268=CARTESIAN_POINT('',(-51.2,0.0,0.0));
#269=DIRECTION('',(1.0,0.0,0.0));
#270=DIRECTION('',(0.0,1.0,0.0));
#271=ORIENTED_EDGE('',*,*,#349,.F.);
#272=ORIENTED_EDGE('',*,*,#377,.F.);
#273=ORIENTED_EDGE('',*,*,#355,.T.);
#274=ORIENTED_EDGE('',*,*,#375,.T.);
#275=CARTESIAN_POINT('',(-50.4,31.125,0.0));
#276=DIRECTION('',(-1.0,-0.0,0.0));
#277=DIRECTION('',(0.0,-1.0,-0.0));
#278=ORIENTED_EDGE('',*,*,#348,.T.);
#279=ORIENTED_EDGE('',*,*,#378,.F.);
#280=ORIENTED_EDGE('',*,*,#350,.T.);
#281=ORIENTED_EDGE('',*,*,#377,.T.);
#282=CARTESIAN_POINT('',(-25.2,0.0,0.0));
#283=DIRECTION('',(1.0,0.0,0.0));
#284=DIRECTION('',(0.0,1.0,0.0));
#285=ORIENTED_EDGE('',*,*,#351,.T.);
#286=ORIENTED_EDGE('',*,*,#378,.T.);
#287=CARTESIAN_POINT('',(1.22460635382238E-015,20.0,0.0));
#288=DIRECTION('',(1.0,-6.12303176911189E-017,0.0));
#289=DIRECTION('',(6.12303176911189E-017,1.0,0.0));
#290=ORIENTED_EDGE('',*,*,#346,.T.);
#291=ORIENTED_EDGE('',*,*,#379,.F.);
#292=ORIENTED_EDGE('',*,*,#347,.T.);
#293=CARTESIAN_POINT('',(-103.231906470002,0.0,0.0));
#294=DIRECTION('',(-1.0,-0.0,-0.0));
#295=DIRECTION('',(0.0,1.0,0.0));
#296=ORIENTED_EDGE('',*,*,#342,.T.);
#297=ORIENTED_EDGE('',*,*,#379,.T.);
#298=ORIENTED_EDGE('',*,*,#344,.T.);
#299=ORIENTED_EDGE('',*,*,#374,.T.);
#300=CARTESIAN_POINT('',(-113.231906470002,0.0,0.0));
#301=DIRECTION('',(1.0,0.0,0.0));
#302=DIRECTION('',(0.0,1.0,0.0));
#303=ORIENTED_EDGE('',*,*,#366,.T.);
#304=ORIENTED_EDGE('',*,*,#372,.T.);
#305=ORIENTED_EDGE('',*,*,#369,.T.);
#306=ORIENTED_EDGE('',*,*,#356,.T.);
#307=ORIENTED_EDGE('',*,*,#360,.T.);
#308=ORIENTED_EDGE('',*,*,#363,.T.);
#309=ORIENTED_EDGE('',*,*,#340,.F.);
#310=ORIENTED_EDGE('',*,*,#380,.F.);
#311=CARTESIAN_POINT('',(-121.5,9.5525625,0.0));
#312=DIRECTION('',(-1.0,-0.0,0.0));
#313=DIRECTION('',(0.0,-1.0,-0.0));
#314=ORIENTED_EDGE('',*,*,#339,.T.);
#315=ORIENTED_EDGE('',*,*,#381,.F.);
#316=ORIENTED_EDGE('',*,*,#341,.T.);
#317=ORIENTED_EDGE('',*,*,#380,.T.);
#318=CARTESIAN_POINT('',(-120.5528125,0.0,0.0));
#319=DIRECTION('',(1.0,-0.0,-0.0));
#320=DIRECTION('',(0.0,1.0,0.0));
#321=ORIENTED_EDGE('',*,*,#335,.T.);
#322=ORIENTED_EDGE('',*,*,#382,.F.);
#323=ORIENTED_EDGE('',*,*,#337,.T.);
#324=ORIENTED_EDGE('',*,*,#381,.T.);
#325=CARTESIAN_POINT('',(-85.8028125,0.0,0.0));
#326=DIRECTION('',(1.0,0.0,0.0));
#327=DIRECTION('',(0.0,1.0,0.0));
#328=ORIENTED_EDGE('',*,*,#353,.F.);
#329=ORIENTED_EDGE('',*,*,#376,.F.);
#330=ORIENTED_EDGE('',*,*,#338,.T.);
#331=ORIENTED_EDGE('',*,*,#382,.T.);
#332=CARTESIAN_POINT('',(-52.0,18.625,0.0));
#333=DIRECTION('',(-1.0,-0.0,0.0));
#334=DIRECTION('',(0.0,-1.0,-0.0));
#335=EDGE_CURVE('',#383,#384,#385,.T.);
#336=EDGE_CURVE('',#383,#386,#387,.T.);
#337=EDGE_CURVE('',#388,#386,#389,.T.);
#338=EDGE_CURVE('',#384,#388,#390,.T.);
#339=EDGE_CURVE('',#391,#383,#392,.T.);
#340=EDGE_CURVE('',#391,#393,#394,.T.);
#341=EDGE_CURVE('',#386,#393,#395,.T.);
#342=EDGE_CURVE('',#396,#397,#398,.T.);
#343=EDGE_CURVE('',#396,#399,#400,.T.);
#344=EDGE_CURVE('',#401,#399,#402,.T.);
#345=EDGE_CURVE('',#401,#397,#403,.T.);
#346=EDGE_CURVE('',#404,#401,#405,.T.);
#347=EDGE_CURVE('',#397,#404,#406,.T.);
#348=EDGE_CURVE('',#407,#408,#409,.T.);
#349=EDGE_CURVE('',#407,#410,#411,.T.);
#350=EDGE_CURVE('',#412,#410,#413,.T.);
#351=EDGE_CURVE('',#408,#412,#414,.T.);
#352=EDGE_CURVE('',#415,#416,#417,.T.);
#353=EDGE_CURVE('',#415,#418,#419,.T.);
#354=EDGE_CURVE('',#420,#418,#421,.T.);
#355=EDGE_CURVE('',#416,#420,#422,.T.);
#356=EDGE_CURVE('',#423,#424,#425,.T.);
#357=EDGE_CURVE('',#423,#426,#427,.T.);
#358=EDGE_CURVE('',#428,#426,#429,.T.);
#359=EDGE_CURVE('',#424,#428,#430,.T.);
#360=EDGE_CURVE('',#424,#431,#432,.T.);
#361=EDGE_CURVE('',#433,#428,#434,.T.);
#362=EDGE_CURVE('',#431,#433,#435,.T.);
#363=EDGE_CURVE('',#431,#436,#437,.T.);
#364=EDGE_CURVE('',#438,#433,#439,.T.);
#365=EDGE_CURVE('',#436,#438,#440,.T.);
#366=EDGE_CURVE('',#436,#441,#442,.T.);
#367=EDGE_CURVE('',#443,#438,#444,.T.);
#368=EDGE_CURVE('',#441,#443,#445,.T.);
#369=EDGE_CURVE('',#446,#423,#447,.T.);
#370=EDGE_CURVE('',#446,#448,#449,.T.);
#371=EDGE_CURVE('',#426,#448,#450,.T.);
#372=EDGE_CURVE('',#441,#446,#451,.T.);
#373=EDGE_CURVE('',#448,#443,#452,.T.);
#374=EDGE_CURVE('',#399,#396,#453,.T.);
#375=EDGE_CURVE('',#420,#416,#454,.T.);
#376=EDGE_CURVE('',#418,#415,#455,.T.);
#377=EDGE_CURVE('',#410,#407,#456,.T.);
#378=EDGE_CURVE('',#412,#408,#457,.T.);
#379=EDGE_CURVE('',#397,#401,#458,.T.);
#380=EDGE_CURVE('',#393,#391,#459,.T.);
#381=EDGE_CURVE('',#386,#383,#460,.T.);
#382=EDGE_CURVE('',#388,#384,#461,.T.);
#383=VERTEX_POINT('',#462);
#384=VERTEX_POINT('',#463);
#385=LINE('',#464,#465);
#386=VERTEX_POINT('',#466);
#387=CIRCLE('',#467,15.0);
#388=VERTEX_POINT('',#468);
#389=LINE('',#469,#470);
#390=CIRCLE('',#471,15.0);
#391=VERTEX_POINT('',#472);
#392=LINE('',#473,#474);
#393=VERTEX_POINT('',#475);
#394=CIRCLE('',#476,13.105625);
#395=LINE('',#477,#478);
#396=VERTEX_POINT('',#479);
#397=VERTEX_POINT('',#480);
#398=LINE('',#481,#482);
#399=VERTEX_POINT('',#483);
#400=CIRCLE('',#484,5.9995);
#401=VERTEX_POINT('',#485);
#402=LINE('',#486,#487);
#403=CIRCLE('',#488,5.9995);
#404=VERTEX_POINT('',#489);
#405=LINE('',#490,#491);
#406=LINE('',#492,#493);
#407=VERTEX_POINT('',#494);
#408=VERTEX_POINT('',#495);
#409=LINE('',#496,#497);
#410=VERTEX_POINT('',#498);
#411=CIRCLE('',#499,40.0);
#412=VERTEX_POINT('',#500);
#413=LINE('',#501,#502);
#414=CIRCLE('',#503,40.0);
#415=VERTEX_POINT('',#504);
#416=VERTEX_POINT('',#505);
#417=LINE('',#506,#507);
#418=VERTEX_POINT('',#508);
#419=CIRCLE('',#509,22.25);
#420=VERTEX_POINT('',#510);
#421=LINE('',#511,#512);
#422=CIRCLE('',#513,22.25);
#423=VERTEX_POINT('',#514);
#424=VERTEX_POINT('',#515);
#425=LINE('',#516,#517);
#426=VERTEX_POINT('',#518);
#427=LINE('',#519,#520);
#428=VERTEX_POINT('',#521);
#429=LINE('',#522,#523);
#430=LINE('',#524,#525);
#431=VERTEX_POINT('',#526);
#432=LINE('',#527,#528);
#433=VERTEX_POINT('',#529);
#434=LINE('',#530,#531);
#435=LINE('',#532,#533);
#436=VERTEX_POINT('',#534);
#437=LINE('',#535,#536);
#438=VERTEX_POINT('',#537);
#439=LINE('',#538,#539);
#440=LINE('',#540,#541);
#441=VERTEX_POINT('',#542);
#442=LINE('',#543,#544);
#443=VERTEX_POINT('',#545);
#444=LINE('',#546,#547);
#445=LINE('',#548,#549);
#446=VERTEX_POINT('',#550);
#447=LINE('',#551,#552);
#448=VERTEX_POINT('',#553);
#449=LINE('',#554,#555);
#450=LINE('',#556,#557);
#451=LINE('',#558,#559);
#452=LINE('',#560,#561);
#453=CIRCLE('',#562,5.9995);
#454=CIRCLE('',#563,22.25);
#455=CIRCLE('',#564,22.25);
#456=CIRCLE('',#565,40.0);
#457=CIRCLE('',#566,40.0);
#458=CIRCLE('',#567,5.9995);
#459=CIRCLE('',#568,13.105625);
#460=CIRCLE('',#569,15.0);
#461=CIRCLE('',#570,15.0);
#462=CARTESIAN_POINT('',(-119.605625,15.0,0.0));
#463=CARTESIAN_POINT('',(-52.0,15.0,0.0));
#464=CARTESIAN_POINT('',(-85.8028125,15.0,-1.83690953073357E-015));
#465=VECTOR('',#571,1.0);
#466=CARTESIAN_POINT('',(-119.605625,-15.0,1.83690953073357E-015));
#467=AXIS2_PLACEMENT_3D('',#572,#573,#574);
#468=CARTESIAN_POINT('',(-52.0,-15.0,1.83690953073357E-015));
#469=CARTESIAN_POINT('',(-85.8028125,-15.0,1.83690953073357E-015));
#470=VECTOR('',#575,1.0);
#471=AXIS2_PLACEMENT_3D('',#576,#577,#578);
#472=CARTESIAN_POINT('',(-121.5,13.105625,0.0));
#473=CARTESIAN_POINT('',(-120.5528125,14.0528125,-1.72091634765745E-015));
#474=VECTOR('',#579,1.0);
#475=CARTESIAN_POINT('',(-121.5,-13.105625,1.60492316458134E-015));
#476=AXIS2_PLACEMENT_3D('',#580,#581,#582);
#477=CARTESIAN_POINT('',(-120.5528125,-14.0528125,1.72091634765745E-015));
#478=VECTOR('',#583,1.0);
#479=CARTESIAN_POINT('',(-112.5,5.9995,-7.34702581975735E-016));
#480=CARTESIAN_POINT('',(-104.963812940003,5.9995,0.0));
#481=CARTESIAN_POINT('',(-108.731906470002,5.9995,-7.34702581975735E-016));
#482=VECTOR('',#584,1.0);
#483=CARTESIAN_POINT('',(-112.5,-5.9995,7.34702581975735E-016));
#484=AXIS2_PLACEMENT_3D('',#585,#586,#587);
#485=CARTESIAN_POINT('',(-104.963812940003,-5.9995,7.34702581975735E-016));
#486=CARTESIAN_POINT('',(-108.731906470002,-5.9995,7.34702581975735E-016));
#487=VECTOR('',#588,1.0);
#488=AXIS2_PLACEMENT_3D('',#589,#590,#591);
#489=CARTESIAN_POINT('',(-101.5,0.0,0.0));
#490=CARTESIAN_POINT('',(-103.231906470002,-2.99975,3.67351290987868E-016));
#491=VECTOR('',#592,1.0);
#492=CARTESIAN_POINT('',(-103.231906470002,2.99975,-3.67351290987868E-016));
#493=VECTOR('',#593,1.0);
#494=CARTESIAN_POINT('',(-50.4,40.0,0.0));
#495=CARTESIAN_POINT('',(2.44921270764475E-015,40.0,0.0));
#496=CARTESIAN_POINT('',(-25.2,40.0,-4.89842541528951E-015));
#497=VECTOR('',#594,1.0);
#498=CARTESIAN_POINT('',(-50.4,-40.0,4.89842541528951E-015));
#499=AXIS2_PLACEMENT_3D('',#595,#596,#597);
#500=CARTESIAN_POINT('',(0.0,-40.0,4.89842541528951E-015));
#501=CARTESIAN_POINT('',(-25.2,-40.0,4.89842541528951E-015));
#502=VECTOR('',#598,1.0);
#503=AXIS2_PLACEMENT_3D('',#599,#600,#601);
#504=CARTESIAN_POINT('',(-52.0,22.25,0.0));
#505=CARTESIAN_POINT('',(-50.4,22.25,0.0));
#506=CARTESIAN_POINT('',(-51.2,22.25,-2.72474913725479E-015));
#507=VECTOR('',#602,1.0);
#508=CARTESIAN_POINT('',(-52.0,-22.25,2.72474913725479E-015));
#509=AXIS2_PLACEMENT_3D('',#603,#604,#605);
#510=CARTESIAN_POINT('',(-50.4,-22.25,2.72474913725479E-015));
#511=CARTESIAN_POINT('',(-51.2,-22.25,2.72474913725479E-015));
#512=VECTOR('',#606,1.0);
#513=AXIS2_PLACEMENT_3D('',#607,#608,#609);
#514=CARTESIAN_POINT('',(-121.5,3.46410161513775,-6.0));
#515=CARTESIAN_POINT('',(-121.5,6.92820323027551,-1.27266226512677E-015));
#516=CARTESIAN_POINT('',(-121.5,6.39022273520663,-0.931809550940352));
#517=VECTOR('',#610,1.0);
#518=CARTESIAN_POINT('',(-112.5,3.46410161513775,-6.0));
#519=CARTESIAN_POINT('',(-122.5,3.46410161513775,-6.0));
#520=VECTOR('',#611,1.0);
#521=CARTESIAN_POINT('',(-112.5,6.92820323027551,-1.27266226512677E-015));
#522=CARTESIAN_POINT('',(-112.5,3.46410161513775,-6.0));
#523=VECTOR('',#612,1.0);
#524=CARTESIAN_POINT('',(-122.5,6.92820323027551,-1.27266226512677E-015));
#525=VECTOR('',#613,1.0);
#526=CARTESIAN_POINT('',(-121.5,3.46410161513776,6.0));
#527=CARTESIAN_POINT('',(-121.5,6.39022273520663,0.931809550940352));
#528=VECTOR('',#614,1.0);
#529=CARTESIAN_POINT('',(-112.5,3.46410161513776,6.0));
#530=CARTESIAN_POINT('',(-112.5,6.92820323027551,-1.27266226512677E-015));
#531=VECTOR('',#615,1.0);
#532=CARTESIAN_POINT('',(-122.5,3.46410161513776,6.0));
#533=VECTOR('',#616,1.0);
#534=CARTESIAN_POINT('',(-121.5,-3.46410161513775,6.0));
#535=CARTESIAN_POINT('',(-121.5,4.77628125,6.0));
#536=VECTOR('',#617,1.0);
#537=CARTESIAN_POINT('',(-112.5,-3.46410161513775,6.0));
#538=CARTESIAN_POINT('',(-112.5,3.46410161513776,6.0));
#539=VECTOR('',#618,1.0);
#540=CARTESIAN_POINT('',(-122.5,-3.46410161513775,6.0));
#541=VECTOR('',#619,1.0);
#542=CARTESIAN_POINT('',(-121.5,-6.92820323027551,4.24230095489963E-016));
#543=CARTESIAN_POINT('',(-121.5,-4.00208211020663,5.06819044905965));
#544=VECTOR('',#620,1.0);
#545=CARTESIAN_POINT('',(-112.5,-6.92820323027551,4.24230095489963E-016));
#546=CARTESIAN_POINT('',(-112.5,-3.46410161513775,6.0));
#547=VECTOR('',#621,1.0);
#548=CARTESIAN_POINT('',(-122.5,-6.92820323027551,4.24230095489963E-016));
#549=VECTOR('',#622,1.0);
#550=CARTESIAN_POINT('',(-121.5,-3.46410161513775,-6.0));
#551=CARTESIAN_POINT('',(-121.5,4.77628125,-6.0));
#552=VECTOR('',#623,1.0);
#553=CARTESIAN_POINT('',(-112.5,-3.46410161513775,-6.0));
#554=CARTESIAN_POINT('',(-122.5,-3.46410161513775,-6.0));
#555=VECTOR('',#624,1.0);
#556=CARTESIAN_POINT('',(-112.5,-3.46410161513775,-6.0));
#557=VECTOR('',#625,1.0);
#558=CARTESIAN_POINT('',(-121.5,-4.00208211020663,-5.06819044905965));
#559=VECTOR('',#626,1.0);
#560=CARTESIAN_POINT('',(-112.5,-6.92820323027551,4.24230095489963E-016));
#561=VECTOR('',#627,1.0);
#562=AXIS2_PLACEMENT_3D('',#628,#629,#630);
#563=AXIS2_PLACEMENT_3D('',#631,#632,#633);
#564=AXIS2_PLACEMENT_3D('',#634,#635,#636);
#565=AXIS2_PLACEMENT_3D('',#637,#638,#639);
#566=AXIS2_PLACEMENT_3D('',#640,#641,#642);
#567=AXIS2_PLACEMENT_3D('',#643,#644,#645);
#568=AXIS2_PLACEMENT_3D('',#646,#647,#648);
#569=AXIS2_PLACEMENT_3D('',#649,#650,#651);
#570=AXIS2_PLACEMENT_3D('',#652,#653,#654);
#571=DIRECTION('',(1.0,0.0,0.0));
#572=CARTESIAN_POINT('',(-119.605625,0.0,0.0));
#573=DIRECTION('',(1.0,0.0,0.0));
#574=DIRECTION('',(0.0,1.0,0.0));
#575=DIRECTION('',(-1.0,-0.0,-0.0));
#576=CARTESIAN_POINT('',(-52.0,0.0,0.0));
#577=DIRECTION('',(1.0,0.0,0.0));
#578=DIRECTION('',(0.0,1.0,0.0));
#579=DIRECTION('',(0.707106781186547,0.707106781186548,-8.65927457071937E-017));
#580=CARTESIAN_POINT('',(-121.5,0.0,0.0));
#581=DIRECTION('',(1.0,0.0,0.0));
#582=DIRECTION('',(0.0,1.0,0.0));
#583=DIRECTION('',(-0.707106781186547,0.707106781186548,-8.65927457071937E-017));
#584=DIRECTION('',(1.0,-0.0,0.0));
#585=CARTESIAN_POINT('',(-112.5,0.0,0.0));
#586=DIRECTION('',(-1.0,0.0,0.0));
#587=DIRECTION('',(0.0,1.0,0.0));
#588=DIRECTION('',(-1.0,-0.0,0.0));
#589=CARTESIAN_POINT('',(-104.963812940003,0.0,0.0));
#590=DIRECTION('',(1.0,0.0,0.0));
#591=DIRECTION('',(0.0,1.0,0.0));
#592=DIRECTION('',(-0.499999999999999,-0.866025403784439,1.06054021204601E-016));
#593=DIRECTION('',(0.499999999999999,-0.866025403784439,1.06054021204601E-016));
#594=DIRECTION('',(1.0,0.0,0.0));
#595=CARTESIAN_POINT('',(-50.4,0.0,0.0));
#596=DIRECTION('',(1.0,0.0,0.0));
#597=DIRECTION('',(0.0,1.0,0.0));
#598=DIRECTION('',(-1.0,-0.0,-0.0));
#599=CARTESIAN_POINT('',(0.0,0.0,0.0));
#600=DIRECTION('',(1.0,0.0,0.0));
#601=DIRECTION('',(0.0,1.0,0.0));
#602=DIRECTION('',(1.0,0.0,0.0));
#603=CARTESIAN_POINT('',(-52.0,0.0,0.0));
#604=DIRECTION('',(1.0,0.0,0.0));
#605=DIRECTION('',(0.0,1.0,0.0));
#606=DIRECTION('',(-1.0,-0.0,-0.0));
#607=CARTESIAN_POINT('',(-50.4,0.0,0.0));
#608=DIRECTION('',(1.0,0.0,0.0));
#609=DIRECTION('',(0.0,1.0,0.0));
#610=DIRECTION('',(0.0,0.5,0.866025403784439));
#611=DIRECTION('',(1.0,0.0,0.0));
#612=DIRECTION('',(-0.0,-0.5,-0.866025403784439));
#613=DIRECTION('',(1.0,0.0,0.0));
#614=DIRECTION('',(0.0,-0.5,0.866025403784439));
#615=DIRECTION('',(0.0,0.5,-0.866025403784439));
#616=DIRECTION('',(1.0,0.0,0.0));
#617=DIRECTION('',(0.0,-1.0,2.56395024851142E-016));
#618=DIRECTION('',(0.0,1.0,-2.56395024851142E-016));
#619=DIRECTION('',(1.0,0.0,0.0));
#620=DIRECTION('',(-0.0,-0.5,-0.866025403784439));
#621=DIRECTION('',(0.0,0.5,0.866025403784439));
#622=DIRECTION('',(1.0,0.0,0.0));
#623=DIRECTION('',(0.0,1.0,0.0));
#624=DIRECTION('',(1.0,0.0,0.0));
#625=DIRECTION('',(-0.0,-1.0,-0.0));
#626=DIRECTION('',(0.0,0.5,-0.866025403784439));
#627=DIRECTION('',(0.0,-0.5,0.866025403784439));
#628=CARTESIAN_POINT('',(-112.5,0.0,0.0));
#629=DIRECTION('',(-1.0,0.0,0.0));
#630=DIRECTION('',(0.0,1.0,0.0));
#631=CARTESIAN_POINT('',(-50.4,0.0,0.0));
#632=DIRECTION('',(1.0,0.0,0.0));
#633=DIRECTION('',(0.0,1.0,0.0));
#634=CARTESIAN_POINT('',(-52.0,0.0,0.0));
#635=DIRECTION('',(1.0,0.0,0.0));
#636=DIRECTION('',(0.0,1.0,0.0));
#637=CARTESIAN_POINT('',(-50.4,0.0,0.0));
#638=DIRECTION('',(1.0,0.0,0.0));
#639=DIRECTION('',(0.0,1.0,0.0));
#640=CARTESIAN_POINT('',(0.0,0.0,0.0));
#641=DIRECTION('',(1.0,0.0,0.0));
#642=DIRECTION('',(0.0,1.0,0.0));
#643=CARTESIAN_POINT('',(-104.963812940003,0.0,0.0));
#644=DIRECTION('',(1.0,0.0,0.0));
#645=DIRECTION('',(0.0,1.0,0.0));
#646=CARTESIAN_POINT('',(-121.5,0.0,0.0));
#647=DIRECTION('',(1.0,0.0,0.0));
#648=DIRECTION('',(0.0,1.0,0.0));
#649=CARTESIAN_POINT('',(-119.605625,0.0,0.0));
#650=DIRECTION('',(1.0,0.0,0.0));
#651=DIRECTION('',(0.0,1.0,0.0));
#652=CARTESIAN_POINT('',(-52.0,0.0,0.0));
#653=DIRECTION('',(1.0,0.0,0.0));
#654=DIRECTION('',(0.0,1.0,0.0));
ENDSEC;
END-ISO-10303-21;
